tabsHeaven.net - 62 619 free Guitar PRO tabs | free guitar software download | discussion board | guitar tabs search | ...

iron and wine - naked as we came

more iron and wine tabs on tabsHeaven.net...

        
Date: Thu,  8 Jul 2004 23:36:43 -0400
From: David Russell <drussel9@uwo.ca>
Subject: i/iron_and_wine_/naked_as_we_came.tab


Iron & Wine - "Naked As We Came" from "Our Endless Numbered Days" (2004)

-This is my own work-David Russell

If anyone has anything to add from this album or the last album of his
Don't be shy!! Email me if you like this, or its wrong or if you have
anything else to say:

drussel9@uwo.ca

Cheers,
David, Calgary AB.

DROP "D" tuning
CAPO - 2ND FRET

INTRO X4 & Verse X4
E|---------------------------------|--------------------------------|
B|-------3--------3-------3-------0|-------0-------0-------0-------0|
G|---0--------0-------0-------0----|---0-------0-------0-------0----|
D|-----4--------4-------4-------4--|-----0-------0-------0-------0--|
A|-5----------------0--------------|-----------------2-------0------|
D|---------0----------------0------|-2-------4----------------------|

CHORUS X4

E|---------------0-----------------|--------------------------------|
B|-------0---------------0-------0-|-------0-------0-------0-------0|
G|---0-------0-------0-------0-----|---0-------0-------0-------0----|
D|-----2-------2-------2-------2---|-----0-------0-------0-------0--|
A|-0-------0-------0-------0-------|-----------------2-------0------|
D|---------------------------------|-2-------4----------------------|

She says "wake up, it's no use pretending"
I'll keep stealing, breathing her
Birds are leaving over autumn's ending
One of us will die inside these arms
Eyes wide open, naked as we came
One will spread our ashes round the yard

She says "if I leave before you, darling
Don't you waste me in the ground"
I lay smiling like our sleeping children
One of us will die inside these arms
Eyes wide open, naked as we came
One will spread our ashes round the yard

      

more iron and wine tabs on tabsHeaven.net...

The aim of tabsHeaven.net is to transmit some useful resources for musicians that wish to improve their skills. Therefore, the content of the files is to be used for private study, scholarship or research only. Moreover, the goal is also to give to the guitarist a chance to make original arrangements of songs and to share them with other guitarists. Consequently, these tabs are a personal interpretation of a musical arrangement by a Guitar Pro user and do not intend to provide a precise tab of the artist. If you notice any Guitar Pro files with a copyright infraction, warn us and the file will be deleted.

We do not aspire to infringe copyrights, and we embolden you to purchase the artist's album and official song book.


Would you like to adversite at this site? Please write at robert.solarik@tabsheaven.net for more information on ad prices.