tabsHeaven.net - 62 619 free Guitar PRO tabs | free guitar software download | discussion board | guitar tabs search | ...

king crimson - thela hun ginjeet

more king crimson tabs on tabsHeaven.net...

        
Date: Mon, 09 Jun 2003 15:00:40 -0400
From: Jarod Eddy <jarodeddy@hotmail.com>
Subject: k/king_crimson/thela_hun_ginjeet.btab 

King Crimson
Thela Hun Ginjeet
from the album "Discipline"
words and music by Adrian Belew
bass tab
transcribed by Jarod Eddy
I declare that this is all my own work

verse:

G|-------------|
D|-1^2---------|
A|-----2^1-----|
E|---------2---|

Chorus:
Qua  Tah-Rey May!  The-la Hun Ginjeet
G|--------------------------------------------|
D|--------------10-9----------------5--3----|
A|---------7^8------------------7^8-----------|
E|-5----7^8--------------5---7^8--------------|

Qua Tah-Rey May! Heat in the Jun-gle
G|--------------------------------------------|
D|--------------10-9----------------5--3----|
A|---------7^8------------------7^8-----------|
E|-5----7^8--------------5---7^8--------------|

Streeeeeeeeeeeeeeeeets
G|----------------------------------|
D|-------------------------1-2------|
A|-2--1----2--1----2--1--------2----|repeat once
E|-----2-------2-------2--------2---|

G|----------------------------------------|
D|--------------------------4-5-----------|
A|-/5--4----5--4----5--4--------5---------|repeat once
E|------5-------5-------5--------51--3--5|

_________________________________________________________________
      

more king crimson tabs on tabsHeaven.net...

The aim of tabsHeaven.net is to transmit some useful resources for musicians that wish to improve their skills. Therefore, the content of the files is to be used for private study, scholarship or research only. Moreover, the goal is also to give to the guitarist a chance to make original arrangements of songs and to share them with other guitarists. Consequently, these tabs are a personal interpretation of a musical arrangement by a Guitar Pro user and do not intend to provide a precise tab of the artist. If you notice any Guitar Pro files with a copyright infraction, warn us and the file will be deleted.

We do not aspire to infringe copyrights, and we embolden you to purchase the artist's album and official song book.


Would you like to adversite at this site? Please write at robert.solarik@tabsheaven.net for more information on ad prices.