tabsHeaven.net - 62 619 free Guitar PRO tabs | free guitar software download | discussion board | guitar tabs search | ...

maroon 5 - harder to breathe

more maroon 5 tabs on tabsHeaven.net...

        Date: Mon, 29 Dec 2003 12:57:06 EST
From: TJBRUN178@aol.com
Date: Mon, 26 May 2003 19:32:28 -0600
From: Rob Pasay <jtull@telusplanet.net>
Date: Fri, 2 Jan 2004 22:30:06 -0800 (PST)
From: Brian Flora <brianbf1986@yahoo.com>
Date: Fri, 18 Jun 2004 12:45:25 -0700 (PDT)
From: Scott Taylor
Subject: m/maroon_5/harder_to_breathe.tab

      "Harder to Breathe"

      Maroon 5
      Songs About Jane


      Verse

      "How dare you say that my...."

      Figure 1 - 3 times (varies slightly)
      2nd guitar adds muted strumming
      ----------------- -----------------------
      ----------------- -----------------------
      ----------------- -----------------------
      ----------------- -------------------2-4-
      -2-4-----2-4----- -2-4----2-4----2-4-----
      --------------4-- -------------4---------

      ----------------- -----------------
      ----------------- -----------------
      ----------------- -----------------
      ----------------- -----------------
      -2-4-----2-4----- -2-4-----4-------
      --------------4-- -----------------


      Chorus

      "Uh, when it gets cold outside...."

      Figure 2 - 3 times
      -4-------- -2---------------------------
      -5-------- -3---------------------------
      -6-------- -4---------------------------
      -6----6--- -4----4----------------------
      -4----6--- -2----4-------------3RD time-
      ------4--- ------2--2--0-2-0-2-(3-2-0-)-

      "Is there anyone out there...."

      Figure 3 - twice
      ------- --------------
      ------- -----0--------
      ------- -----0---0----
      ------- -----0---0-0--
      -4----- -----------0--
      ------- -----3~14-----


      Verse

      "What you are doing is screwing...."

      w/muted riff
      ----------------- -----------------------
      ----------------- -----------------------
      ----------------- -----------------------
      ----------------- -------------------2-4-
      -2-4-----2-4----- -2-4----2-4----2-4-----
      --------------4-- -------------4---------

      ----------------- -----------------
      ----------------- -----------------
      ----------------- -----------------
      ----------------- -----------------
      -2-4-----2-4----- -2-4-----4-------
      --------------4-- -----------------


      Chorus

      Figure 2 - 3 times

      w/ muted rhythm - 6 times
      ---------
      ---------
      -13------
      -11------
      -11------
      ---------

      "Is there anyone out there....."

      -4---- ---------------- ----- -------------
      -5---- -----5---------- ----- -------------
      -6---- -----6---------- ----- -------------
      -6---- -6---6---------- ----- -------------
      -4---- -6---4---------- -4~-- -------------
      ------ -4--------3-2-0- ----- -----11~-3-2-


      Guitar Solo

      James Valentine solos over C# minor pentatonic figures
      w/delay

      Basic background groove is
      ---------------------
      ---------------------
      ---------------------
      ---------------------
      -4---4---4---4--2-4--
      ---------------------

      rhythm guitar outlines
      play these 2 bars = 3 times
      ---- -3----2--- -0----2---
      ---- -5----4--- -2----4---
      ---- -3----2--- -1----2---
      ---- ---------- ----------
      ---- ---------- ---------- then
      ---- ---------- ----------

      --3-----4-----
      --5-----5-----
      --3-----4-----
      --------------
      --------------
      --------------


      Chorus

      "Uh, when it gets cold outside...."

      Figure 2 - 3 times

      "Is there anyone out there....."

      -4---- ---------------- ----- -------------
      -5---- -----5---------- ----- -------------
      -6---- -----6---------- ----- -------------
      -6---- -6---6---------- ----- -------------
      -4---- -6---4---------- -4~-- -------------
      ------ -4--------3-2-0- ----- -----12~-3-2-

      repeat previous 2 bars then end on

      -------------
      -------------
      -------------
      -------------
      -2-4---------
      -------------

      

more maroon 5 tabs on tabsHeaven.net...

The aim of tabsHeaven.net is to transmit some useful resources for musicians that wish to improve their skills. Therefore, the content of the files is to be used for private study, scholarship or research only. Moreover, the goal is also to give to the guitarist a chance to make original arrangements of songs and to share them with other guitarists. Consequently, these tabs are a personal interpretation of a musical arrangement by a Guitar Pro user and do not intend to provide a precise tab of the artist. If you notice any Guitar Pro files with a copyright infraction, warn us and the file will be deleted.

We do not aspire to infringe copyrights, and we embolden you to purchase the artist's album and official song book.


Would you like to adversite at this site? Please write at robert.solarik@tabsheaven.net for more information on ad prices.