tabsHeaven.net - 62 619 free Guitar PRO tabs | free guitar software download | discussion board | guitar tabs search | ...

tantric - inside your head

more tantric tabs on tabsHeaven.net...

        
From: FetusInChains@aol.com
Date: Tue, 2 Oct 2001 14:47:18 EDT
Subject: t/tantric/inside_your_head.tab

TANTRIC
Track 12-Inside Your Head

Transcribed by: Rob "Fetus" Torrey
Email: fetusinchains@aol.com

Half Step Down
E-A-D-G-B-E

Intro/Verse
E-------------------------------------------------------
B----------0---------------0----------------------------
G------7-----7---7-----------7---7----------------------
D-------------------5-----------------------------------
A----7---7-----7------7--------7------------------------
E--0--------------------0-------------------------------

E-------------------------------------------------------
B----------0---------------0----------------------------
G------6-----6---6-----------6---6----------------------
D-------------------5-----------------------------------
A----7---7-----7------7--------7------------------------
E--0--------------------0-------------------------------

Fill
E-------------------------------------------------------
B-------------------------------------------------------
G-------------------------------------------------------
D----------0-2-4-5--------------------------------------
A------0-2----------------------------------------------
E--0-3--------------------------------------------------

Chorus
E-------------------------------------------------------
B----------0--------------------------------0-----------
G--------7---7--------------0-----------------0---------
D------9-------9----------0---0----------7--------------x3
A----0-----------0------7-------7------7----------------
E--0---------------0--8-----------8--5------------------

Bridge=3DVerse

End Chorus
E-------------------------------------------------------
B-------------------------------------------------------
G---------------5-5-------------------------------------
D--2-2---2---2--5-5--7-7--------------------------------
A--2-2---2---2--3-3--7-7--------------------------------
E--0-0---0---0-------5-5--------------------------------

Intro/Verse x6
Fill
Chorus
Verse x5
Fill
Chorus x2
Bridge
Chorus x4
End Chorus x16
      

more tantric tabs on tabsHeaven.net...

The aim of tabsHeaven.net is to transmit some useful resources for musicians that wish to improve their skills. Therefore, the content of the files is to be used for private study, scholarship or research only. Moreover, the goal is also to give to the guitarist a chance to make original arrangements of songs and to share them with other guitarists. Consequently, these tabs are a personal interpretation of a musical arrangement by a Guitar Pro user and do not intend to provide a precise tab of the artist. If you notice any Guitar Pro files with a copyright infraction, warn us and the file will be deleted.

We do not aspire to infringe copyrights, and we embolden you to purchase the artist's album and official song book.


Would you like to adversite at this site? Please write at robert.solarik@tabsheaven.net for more information on ad prices.