tabsHeaven.net - 62 619 free Guitar PRO tabs | free guitar software download | discussion board | guitar tabs search | ...

tantric - live your life

more tantric tabs on tabsHeaven.net...

        
Date: Wed, 28 Mar 2001 00:09:33 -0500
From: "Chease Ownz U" <xcheasex@hotmail.com>
Subject: t/tantric/live_your_life.crd

Tantric - Live Your Life (Down)
Music and Lyrics by Tantric
Track 2 from their self-titled album
Transcribed by Kenny Maus

Intro/Verse:

eb|-------------------------------------|
Bb|-------------------------------------|
Gb|---------------2----------0----------|
Db|-----2-4---5-----------0------4---0--|
Ab|---2-----2---2------0-------0---0----|
Db|-2---------------0-------------------|

Riff 1:

eb|-------------------------------------|
Bb|-------------------------------------|
Gb|-------------------------------------|
Db|-2-*----------0---0---0-*------------|
Ab|-2-*----------0---0---0-*------------|
Db|-2-*----------0---0---0-*------------|

Chorus:

p.m   ......   ......   ..........
eb|-------------------------------------|
Bb|----------------------------------5~-|
Gb|-------------------2-2-2-2----5------|
Db|-2-2-2-2--5-5-5-5--2-2-2-2------5----|
Ab|-2-2-2-2--5-5-5-5--0-0-0-0--3--------|
Db|-2-2-2-2--5-5-5-5--------------------|

p.m   ......   ......   ..........
eb|-----------------------------------|
Bb|-----------------------------------|
Gb|-----------------------------------|
Db|-2-2-2-2--5-5-5-5--3-3-3-3-3-3-3-3-|
Ab|-2-2-2-2--5-5-5-5--3-3-3-3-3-3-3-3-|
Db|-2-2-2-2--5-5-5-5--3-3-3-3-3-3-3-3-|
                         ^stop here on first chorus

Bridge:

Fig. 1

p.m ...............
eb|-----------------|
Bb|-----------------|
Gb|-----------------|
Db|-3-3-3-3-3-3-3-3-|
Ab|-3-3-3-3-3-3-3-3-|
Db|-3-3-3-3-3-3-3-3-|

Fig. 2

eb|---------------------------------|
Bb|---------------------------------|
Gb|---------------------------------|
Db|-2-0-2-/7-5---/8-7---/8-5-2-0-2-|
Ab|-2-0-2-/7-5---/8-7---/8-5-2-0-2-|
Db|-2-0-2-/7-5---/8-7---/8-5-2-0-2-|

Fig. 3
p.m.                        ........   2nd time add:
eb|---------------------------------| |-----|
Bb|---------------------------------| |-----|
Gb|---------------------------------| |-----|
Db|-2-0-2-/7-5---/8-7---/8-3--3--3-| |-2-*-|
Ab|-2-0-2-/7-5---/8-7---/8-3--3--3-| |-2-*-|
Db|-2-0-2-/7-5---/8-7---/8-3--3--3-| |-2-*-|

-----------------
Sequence:

Intro/Verse
If you live your life...

Riff 1
tell me, tell me...

Intro/Verse
...pain
Look into your heart...

Chorus
Run away, run away...

Intro/Verse

If you live your life...

Riff 1
I'm always thinking...

Intro/Verse
...fade away
Never bothered you, never bothered me...

Chorus
Run away, run away...

Bridge:
Fig. 1
Fig. 2
Fig. 3
Fig. 2
Fig. 3 *addition

Intro/Verse
If you live your life...
      

more tantric tabs on tabsHeaven.net...

The aim of tabsHeaven.net is to transmit some useful resources for musicians that wish to improve their skills. Therefore, the content of the files is to be used for private study, scholarship or research only. Moreover, the goal is also to give to the guitarist a chance to make original arrangements of songs and to share them with other guitarists. Consequently, these tabs are a personal interpretation of a musical arrangement by a Guitar Pro user and do not intend to provide a precise tab of the artist. If you notice any Guitar Pro files with a copyright infraction, warn us and the file will be deleted.

We do not aspire to infringe copyrights, and we embolden you to purchase the artist's album and official song book.


Would you like to adversite at this site? Please write at robert.solarik@tabsheaven.net for more information on ad prices.