tabsHeaven.net - 62 619 free Guitar PRO tabs | free guitar software download | discussion board | guitar tabs search | ...

taylor corey - bother

more taylor corey tabs on tabsHeaven.net...

        
Date: Wed, 3 Jul 2002 13:00:57 -0700 (PDT)
From: Anton Andersson <antoon@aliceinchains.com>
Subject: t/taylor_corey/bother.tab

Artist: Corey Taylor
Song: Bother 
Album: Spiderman Soundtrack

Tuning: Down a half step Eb, Ab, Db, Gb, Bb, Eb) 

h = Hammer on
p = Pull off 
/ = Slide
and just follow the 
rest of the instructions

intro and interlude

Eb--7----7-------------------------------------------------------------------|
Bb--8----7--7h8p7--------8-7--7h8p7--------8-7--7h8p7--------8-7-------------|
Gb--7----7-------9p7-----7-7-------9p7-----7-7-------9p7-----7-7-----(paus)--|
Db--7h9--9---------------9-9---------------9-9---------------9-9-------------| 
Ab--7----7-let ring---7-let ring--------7-let ring--------7-let ring---------| 
Eb---------------------------------------------------------------------------|

verse

Eb--7----7----7----7-------------------7----7--------------------------------|
Bb--8----7----8----7-------------------8----7--7h8p7-------------------------|
Gb--7----7----7----7--------4-4---4----7----7-------9p7----------------------|
Db--7h9--9----7h9--9----5-5-5-5-5-5----7h9--9--------------------------------|
Ab--7----7----7----7----5-5-5-5-5-5----7----7--------------------------------|
Eb----------------------3-3-3-3-3-3------------------------------------------|

Eb--7----7----7----7---------------------5-----------------------------------|
Bb--8----7----8----7---------------------5--5---5----------------------------|
Gb--7----7----7----7--------4-4---4------7--7-7-7----------------------------|
Db--7h9--9----7h9--9----5-5-5-5-5-5-5----7--7-7-7----------------------------|
Ab--7----7----7----7----5-5-5-5-5-5-5-5--5--5-5-5----------------------------|
Eb----------------------3-3-3-3-3-3-3-3--------------------------------------|

chorus

Eb--7----7------5--5----7--7------------------7------------------------------|
Bb--8----8------5--5----8--8------------------8------------------------------|
Gb--7-----------7--7----7---------7--7-8-7-8--7------------------------------|
Db--9------9----7--7----9----9----9--9-9-9-9--7h9----------------------------|
Ab--7------7----5--5----7----7----9--9-9-9-9--7------------------------------|
Eb--------------------------------7--7-7-7-7---------------------------------|

Eb--7-7-----7----5--5--------------------------------------------------------|
Bb--8-8---8-8----5--5--------------3-----------------------------------------|
Gb--7-7----------7--7---------4----4--4--------6----6--6--6------------------|
Db--9-9--9-------7--7----5-5--5-5--5--5------7-7--7-7--7--7-7----------------|
Ab--7-7--7-------5--5----5-5--5-5--5--5-5----7-7--7-7--7--7-7----------------|
Eb-----------------------3-3--3-3--3--3-3----5-5--5-5--5--5-5----------------|

bridge

Eb--7-7--7--7--7--7----------------------------------------------------------|
Bb--8-8--8--8--8--8----6-6--6--6--6--6----3-3--3--3--3--3--------------------|
Gb--7-7--7--7--7--7----7-7--8--7--8--7----5-5--5--5--5--5----7-7--7--7--7--7-|
Db--9-9--9--9--9--9----9-9--9--9--9--9----5-5--5--5--5--5----7-7--7--7--7--7-|
Ab--7-7--7--7--7--7----9-9--9--9--9--9----3-3--3--3--3--3----5-5--5--5--5--5-|
Eb---------------------7-7--7--7--7--7---------------------------------------|

solo

gtr 1
Improvise using this tones.
I'm to lazy to tab the solo.
Eb-----------------------|
Bb----7-8---10----12-----|
Gb----7---9----11-12-14--|
Db----7---9-------12-14--|
Ab----7---9-------12-12--|
Eb-----------------------|

bass
Eb------------------|
Bb------------------|  
Gb------------------| repeat a few times
Db------------------|
Ab----5h7-7/8-7--5--|
Eb--7---------------| 

ending

1:|--7-------7--|
2:|---8-----7---|
3:|----7---7----| strum 
4:|-----7-9-----|  
5:|------6------|
6:|-------------|


tabbed by AntonA antoon@aliceinchains.com

_____________________________________________________________
      

more taylor corey tabs on tabsHeaven.net...

The aim of tabsHeaven.net is to transmit some useful resources for musicians that wish to improve their skills. Therefore, the content of the files is to be used for private study, scholarship or research only. Moreover, the goal is also to give to the guitarist a chance to make original arrangements of songs and to share them with other guitarists. Consequently, these tabs are a personal interpretation of a musical arrangement by a Guitar Pro user and do not intend to provide a precise tab of the artist. If you notice any Guitar Pro files with a copyright infraction, warn us and the file will be deleted.

We do not aspire to infringe copyrights, and we embolden you to purchase the artist's album and official song book.


Would you like to adversite at this site? Please write at robert.solarik@tabsheaven.net for more information on ad prices.