tabsHeaven.net - 62 619 free Guitar PRO tabs | free guitar software download | discussion board | guitar tabs search | ...

eagles - hotel california solo

more eagles tabs on tabsHeaven.net...

        
Date: Sat, 28 Feb 2004 17:17:16 +0800
From: nichc07@cen.corpus.wa.edu.au
Subject: e/eagles/hotel_california_solo.tab

Song: Hotel California
Band: The Eagles
Album: The Very Best of the Eagles
Tabbed by: Cameron Nicholas

NOTE:
This Song was played and then dubbed
over by eight guitars to get the melodic
sound you hear on the track of "hotel
california."
They did it by using chord variations eg.
in the chorus using not just "D" but also 
stuff like Dm, D#, Db, D7, Dm7, D9, D5...
(something like that), but this is an accurate 
version (i may have missed out or have made 2
mistakes on the riff) but i spent an hour listening
to the track so, it's pretty accurate.

 --------------------------------
|                                |
| LEGEND:                        |
|                                |
| / = Slide                      |
| * = Jiggle Wammy Handle Down   |
| ^ = Bend, Gradually going Down |
|                                |
 --------------------------------

Intro:

Cmb, G7b, A, E,
G, D, Em, G7b,

Bass comes in...

Cmb, G7b, A, E,
G, D, Em, G7b,

Drums Start...

Verse:

Cmb, G7b, A, E,
G, D, Em, G7b,
Cmb, G7b, A, E,
G, D, Em, G7b,

Chorus:

G, D, G7b, Cmb,
G, D, Em, G7b,

Solo:

----2-5-2-7---10---9------------------------------------------
----------------------3-5-7-0-0-3-5---------------------------
------------------------------------3/down--------------------
--------------------------------------------------------------
--------------------------------------------------------------
--------------------------------------------------------------

---------------------------7-10-7-5-7-------------------------
-----3-5-7-3-0-3-5-7-3-0-0------------9*----------------------
--------------------------------------------------------------
--------------------------------------------------------------
--------------------------------------------------------------
--------------------------------------------------------------

--------------------------------------------------------------
----12-9-(15/up17)-15-12-15-12-12-----------------------------
--------------------------------------------------------------
--------------------------------------------------------------
--------------------------------------------------------------
--------------------------------------------------------------

----------------------------0-2-3-3-2-0-0-2-3-3-2-0-2-2-5-2-5-
-----12-12-7-7-7-5--3-3-2-3-----------------------------------
--------------------------------------------------------------
--------------------------------------------------------------
--------------------------------------------------------------
--------------------------------------------------------------

--2-5-2-5-----------------------------------------------------
----------2-2-5-2-5-2-5-2-5-2-5-2-2-5-2-5-2-2-5-2---17/up-----
--------------------------------------------------------------
--------------------------------------------------------------
--------------------------------------------------------------
--------------------------------------------------------------

--------------------------------------------------------------
---10-5-7-3-0-0-12-12-10-7-12-15-12-12-11-10-9----------------
--------------------------------------------------------------
--------------------------------------------------------------
--------------------------------------------------------------
--------------------------------------------------------------

----------------------14-15-17-19-14-12-14--------------------
--12-12------15-17-15-----------------------------------------
--------------------------------------------------------------
--------------------------------------------------------------
--------------------------------------------------------------
--------------------------------------------------------------

----14-17-17-14-12-14-14-17-17-14-12-14-----------------------
--------------------------------------------------------------
--------------------------------------------------------------
--------------------------------------------------------------
--------------------------------------------------------------
--------------------------------------------------------------

--(17/up19)--10-10-10-2-5-4-----------------------------------
--(17/up19)---------------------------------------------------
--------------------------------------------------------------
--------------------------------------------------------------
--------------------------------------------------------------
--------------------------------------------------------------

-13^-13^-13^-13^-13^-13^-13^-13^-13^-13^-12-10-12-10-7-7-5-3-2
--------------------------------------------------------------
--------------------------------------------------------------
--------------------------------------------------------------
--------------------------------------------------------------
--------------------------------------------------------------

-2-5-2-----14-12-10-14-12-10-14-12-10-14-12-10-14-------------
--------------------------------------------------------------
--------------------------------------------------------------
--------------------------------------------------------------
--------------------------------------------------------------
--------------------------------------------------------------

---2-3-3-5--7-6----6-7-9--------------------------------------
--------------------------------------------------------------
--------------------------------------------------------------
--------------------------------------------------------------
--------------------------------------------------------------
--------------------------------------------------------------

Outro:

---14---------14--------14--------14--------14----------------
-------15--12----15--12----15--12----15--12----15--12---------
--------------------------------------------------------------
--------------------------------------------------------------
--------------------------------------------------------------
--------------------------------------------------------------

--12-9-5---12-9-5--12-9-16------------------------------------
--------------------------------------------------------------
--------------------------------------------------------------
--------------------------------------------------------------
--------------------------------------------------------------
--------------------------------------------------------------

Repeat Outro to fade..........................................

If you have any questions, comments, complaints, or concerns,
contact me at: nichc07@cen.corpus.wa.edu.au..................
that's all for now, cya
      

more eagles tabs on tabsHeaven.net...

The aim of tabsHeaven.net is to transmit some useful resources for musicians that wish to improve their skills. Therefore, the content of the files is to be used for private study, scholarship or research only. Moreover, the goal is also to give to the guitarist a chance to make original arrangements of songs and to share them with other guitarists. Consequently, these tabs are a personal interpretation of a musical arrangement by a Guitar Pro user and do not intend to provide a precise tab of the artist. If you notice any Guitar Pro files with a copyright infraction, warn us and the file will be deleted.

We do not aspire to infringe copyrights, and we embolden you to purchase the artist's album and official song book.


Would you like to adversite at this site? Please write at robert.solarik@tabsheaven.net for more information on ad prices.